ISO-10303-21;
HEADER;
FILE_DESCRIPTION (( 'STEP AP203' ),
    '1' );
FILE_NAME ('End Cap SDR11_001 117 0140 0200.step',
    '2019-12-16T11:41:10',
    ( '' ),
    ( '' ),
    'SwSTEP 2.0',
    'SolidWorks 2019',
    '' );
FILE_SCHEMA (( 'CONFIG_CONTROL_DESIGN' ));
ENDSEC;

DATA;
#1 = DIRECTION ( 'NONE',  ( -0.0000000000000000000, -1.000000000000000000, -0.0000000000000000000 ) ) ;
#2 = CARTESIAN_POINT ( 'NONE',  ( 0.0000000000000000000, 125.0278884516288826, 0.0000000000000000000 ) ) ;
#3 = AXIS2_PLACEMENT_3D ( 'NONE', #166, #277, #17 ) ;
#4 = CARTESIAN_POINT ( 'NONE',  ( 0.0000000000000000000, 111.9999999999999574, -81.79999999999994031 ) ) ;
#5 = CARTESIAN_POINT ( 'NONE',  ( 1.001761081702534332E-14, 111.9999999999999574, 81.79999999999994031 ) ) ;
#6 = CARTESIAN_POINT ( 'NONE',  ( 1.001761081702534963E-14, 0.0000000000000000000, 81.80000000000001137 ) ) ;
#7 = DIRECTION ( 'NONE',  ( 0.0000000000000000000, 0.0000000000000000000, -1.000000000000000000 ) ) ;
#8 = DIRECTION ( 'NONE',  ( -0.0000000000000000000, -1.000000000000000000, -0.0000000000000000000 ) ) ;
#9 = CC_DESIGN_PERSON_AND_ORGANIZATION_ASSIGNMENT ( #305, #107, ( #259 ) ) ;
#10 = CARTESIAN_POINT ( 'NONE',  ( 0.0000000000000000000, 0.0000000000000000000, 0.0000000000000000000 ) ) ;
#11 =( GEOMETRIC_REPRESENTATION_CONTEXT ( 3 ) GLOBAL_UNCERTAINTY_ASSIGNED_CONTEXT ( ( #20 ) ) GLOBAL_UNIT_ASSIGNED_CONTEXT ( ( #199, #165, #131 ) ) REPRESENTATION_CONTEXT ( 'NONE', 'WORKASPACE' ) );
#12 = DIRECTION ( 'NONE',  ( 0.0000000000000000000, 0.0000000000000000000, -1.000000000000000000 ) ) ;
#13 = DIRECTION ( 'NONE',  ( -0.0000000000000000000, -1.000000000000000000, -0.0000000000000000000 ) ) ;
#14 = CARTESIAN_POINT ( 'NONE',  ( 0.0000000000000000000, 0.0000000000000000000, 0.0000000000000000000 ) ) ;
#15 = DIRECTION ( 'NONE',  ( 0.0000000000000000000, 0.0000000000000000000, -1.000000000000000000 ) ) ;
#16 = DIRECTION ( 'NONE',  ( -0.0000000000000000000, -1.000000000000000000, -0.0000000000000000000 ) ) ;
#17 = DIRECTION ( 'NONE',  ( 1.000000000000000000, 0.0000000000000000000, 0.0000000000000000000 ) ) ;
#18 = CARTESIAN_POINT ( 'NONE',  ( 0.0000000000000000000, 0.0000000000000000000, 0.0000000000000000000 ) ) ;
#19 = APPROVAL_DATE_TIME ( #279, #287 ) ;
#20 = UNCERTAINTY_MEASURE_WITH_UNIT (LENGTH_MEASURE( 1.000000000000000082E-05 ), #199, 'distance_accuracy_value', 'NONE');
#21 = CARTESIAN_POINT ( 'NONE',  ( 1.224646799147353217E-14, 0.0000000000000000000, 100.0000000000000000 ) ) ;
#22 = APPROVAL_DATE_TIME ( #281, #296 ) ;
#23 = DIRECTION ( 'NONE',  ( 0.0000000000000000000, 0.0000000000000000000, -1.000000000000000000 ) ) ;
#24 = APPROVAL_STATUS ( 'not_yet_approved' ) ;
#25 = DIRECTION ( 'NONE',  ( -0.0000000000000000000, -1.000000000000000000, -0.0000000000000000000 ) ) ;
#26 = CARTESIAN_POINT ( 'NONE',  ( 0.0000000000000000000, 125.0278884516288826, 0.0000000000000000000 ) ) ;
#27 = CC_DESIGN_SECURITY_CLASSIFICATION ( #297, ( #259 ) ) ;
#28 = DIRECTION ( 'NONE',  ( 0.0000000000000000000, 0.0000000000000000000, -1.000000000000000000 ) ) ;
#29 = CARTESIAN_POINT ( 'NONE',  ( 1.224646799147353059E-14, 125.0278884516288826, 99.99999999999998579 ) ) ;
#30 = DIRECTION ( 'NONE',  ( -0.0000000000000000000, -1.000000000000000000, -0.0000000000000000000 ) ) ;
#31 = AXIS2_PLACEMENT_3D ( 'NONE', #2, #1, #250 ) ;
#32 = CARTESIAN_POINT ( 'NONE',  ( 0.0000000000000000000, 111.9999999999999574, 0.0000000000000000000 ) ) ;
#33 = DIRECTION ( 'NONE',  ( -0.0000000000000000000, -1.000000000000000000, -0.0000000000000000000 ) ) ;
#34 = CARTESIAN_POINT ( 'NONE',  ( 0.0000000000000000000, 0.0000000000000000000, -81.79999999999996874 ) ) ;
#35 = LINE ( 'NONE', #34, #84 ) ;
#36 = ADVANCED_FACE ( 'NONE', ( #192 ), #191, .F. ) ;
#37 = DIRECTION ( 'NONE',  ( 0.0000000000000000000, 0.0000000000000000000, -1.000000000000000000 ) ) ;
#38 = DIRECTION ( 'NONE',  ( -0.0000000000000000000, -1.000000000000000000, -0.0000000000000000000 ) ) ;
#39 = LOCAL_TIME ( 14, 41, 10.00000000000000000, #304 ) ;
#40 = CARTESIAN_POINT ( 'NONE',  ( 0.0000000000000000000, 0.0000000000000000000, 0.0000000000000000000 ) ) ;
#41 = DIRECTION ( 'NONE',  ( 0.0000000000000000000, 0.0000000000000000000, -1.000000000000000000 ) ) ;
#42 = ADVANCED_FACE ( 'NONE', ( #180 ), #177, .T. ) ;
#43 = DIRECTION ( 'NONE',  ( -0.0000000000000000000, -1.000000000000000000, -0.0000000000000000000 ) ) ;
#44 = COORDINATED_UNIVERSAL_TIME_OFFSET ( 3, 0, .AHEAD. ) ;
#45 = CARTESIAN_POINT ( 'NONE',  ( 0.0000000000000000000, -156.7576936753261805, 0.0000000000000000000 ) ) ;
#46 = COORDINATED_UNIVERSAL_TIME_OFFSET ( 3, 0, .AHEAD. ) ;
#47 = CARTESIAN_POINT ( 'NONE',  ( 1.734723475976807094E-14, 143.2278884516288429, 0.0000000000000000000 ) ) ;
#48 = DATE_AND_TIME ( #291, #123 ) ;
#49 = AXIS2_PLACEMENT_3D ( 'NONE', #10, #8, #7 ) ;
#50 = FACE_OUTER_BOUND ( 'NONE', #275, .T. ) ;
#51 = EDGE_CURVE ( 'NONE', #209, #274, #190, .T. ) ;
#52 = CIRCLE ( 'NONE', #31, 99.99999999999998579 ) ;
#53 = AXIS2_PLACEMENT_3D ( 'NONE', #14, #13, #12 ) ;
#54 = CARTESIAN_POINT ( 'NONE',  ( 0.0000000000000000000, 0.0000000000000000000, -81.79999999999999716 ) ) ;
#55 = DIRECTION ( 'NONE',  ( -0.0000000000000000000, -1.000000000000000000, -0.0000000000000000000 ) ) ;
#56 = CARTESIAN_POINT ( 'NONE',  ( 1.001761081702534490E-14, 0.0000000000000000000, 81.79999999999996874 ) ) ;
#57 = LINE ( 'NONE', #56, #108 ) ;
#58 = CIRCLE ( 'NONE', #53, 100.0000000000000000 ) ;
#59 = AXIS2_PLACEMENT_3D ( 'NONE', #18, #16, #15 ) ;
#60 = DIRECTION ( 'NONE',  ( -0.0000000000000000000, -1.000000000000000000, -0.0000000000000000000 ) ) ;
#61 = CARTESIAN_POINT ( 'NONE',  ( 0.0000000000000000000, 0.0000000000000000000, -100.0000000000000000 ) ) ;
#62 = ADVANCED_FACE ( 'NONE', ( #159 ), #158, .T. ) ;
#63 = LINE ( 'NONE', #61, #109 ) ;
#64 = DIRECTION ( 'NONE',  ( 0.0000000000000000000, 0.0000000000000000000, 1.000000000000000000 ) ) ;
#65 = DIRECTION ( 'NONE',  ( -1.000000000000000000, 0.0000000000000000000, 0.0000000000000000000 ) ) ;
#66 = DIRECTION ( 'NONE',  ( 0.0000000000000000000, 0.0000000000000000000, -1.000000000000000000 ) ) ;
#67 = CIRCLE ( 'NONE', #59, 81.79999999999999716 ) ;
#68 = AXIS2_PLACEMENT_3D ( 'NONE', #26, #25, #23 ) ;
#69 = DIRECTION ( 'NONE',  ( -0.0000000000000000000, -1.000000000000000000, -0.0000000000000000000 ) ) ;
#70 = PERSON_AND_ORGANIZATION ( #249, #293 ) ;
#71 = LOCAL_TIME ( 14, 41, 10.00000000000000000, #260 ) ;
#72 = APPLICATION_CONTEXT ( 'configuration controlled 3d designs of mechanical parts and assemblies' ) ;
#73 = CARTESIAN_POINT ( 'NONE',  ( 0.0000000000000000000, -156.7576936753261805, 0.0000000000000000000 ) ) ;
#74 = CC_DESIGN_PERSON_AND_ORGANIZATION_ASSIGNMENT ( #139, #257, ( #259 ) ) ;
#75 = PERSON_AND_ORGANIZATION ( #249, #293 ) ;
#76 = CIRCLE ( 'NONE', #68, 99.99999999999998579 ) ;
#77 = CARTESIAN_POINT ( 'NONE',  ( 0.0000000000000000000, -156.7576936753261805, 2.941175947105852728 ) ) ;
#78 = PERSON_AND_ORGANIZATION_ROLE ( 'classification_officer' ) ;
#79 = FACE_OUTER_BOUND ( 'NONE', #247, .T. ) ;
#80 = AXIS2_PLACEMENT_3D ( 'NONE', #32, #30, #28 ) ;
#81 = EDGE_CURVE ( 'NONE', #266, #268, #179, .T. ) ;
#82 = CIRCLE ( 'NONE', #80, 81.79999999999994031 ) ;
#83 = DIRECTION ( 'NONE',  ( 0.0000000000000000000, 0.0000000000000000000, -1.000000000000000000 ) ) ;
#84 = VECTOR ( 'NONE', #33, 1000.000000000000000 ) ;
#85 = DIRECTION ( 'NONE',  ( 0.0000000000000000000, -1.000000000000000000, -0.0000000000000000000 ) ) ;
#86 = CARTESIAN_POINT ( 'NONE',  ( 81.79999999999999716, 0.0000000000000000000, 0.0000000000000000000 ) ) ;
#87 = PLANE ( 'NONE',  #119 ) ;
#88 = ADVANCED_FACE ( 'NONE', ( #140 ), #168, .F. ) ;
#89 = AXIS2_PLACEMENT_3D ( 'NONE', #40, #38, #37 ) ;
#90 = FACE_BOUND ( 'NONE', #248, .T. ) ;
#91 = CIRCLE ( 'NONE', #89, 81.79999999999999716 ) ;
#92 = APPLICATION_CONTEXT ( 'configuration controlled 3d designs of mechanical parts and assemblies' ) ;
#93 = AXIS2_PLACEMENT_3D ( 'NONE', #45, #43, #41 ) ;
#94 = FACE_OUTER_BOUND ( 'NONE', #251, .T. ) ;
#95 = DIRECTION ( 'NONE',  ( -1.224646799147353207E-16, 0.0000000000000000000, -1.000000000000000000 ) ) ;
#96 = DIRECTION ( 'NONE',  ( 1.000000000000000000, 0.0000000000000000000, -1.224646799147353207E-16 ) ) ;
#97 = CARTESIAN_POINT ( 'NONE',  ( 0.0000000000000000000, 0.0000000000000000000, -100.0000000000000000 ) ) ;
#98 = MANIFOLD_SOLID_BREP ( 'Döndür1', #205 ) ;
#99 = CARTESIAN_POINT ( 'NONE',  ( -3.601901709352367682E-16, -156.7576936753261805, -2.941175947105852728 ) ) ;
#100 = TOROIDAL_SURFACE ( 'NONE', #93, -2.941175947105852728, 299.9999999999998863 ) ;
#101 = DIRECTION ( 'NONE',  ( -1.224646799147353207E-16, 0.0000000000000000000, -1.000000000000000000 ) ) ;
#102 = PERSON_AND_ORGANIZATION ( #249, #293 ) ;
#103 = DIRECTION ( 'NONE',  ( 1.000000000000000000, 0.0000000000000000000, -1.224646799147353207E-16 ) ) ;
#104 = CALENDAR_DATE ( 2019, 16, 12 ) ;
#105 = DIRECTION ( 'NONE',  ( 0.0000000000000000000, 0.0000000000000000000, -1.000000000000000000 ) ) ;
#106 = EDGE_CURVE ( 'NONE', #272, #230, #153, .T. ) ;
#107 = PERSON_AND_ORGANIZATION_ROLE ( 'design_supplier' ) ;
#108 = VECTOR ( 'NONE', #55, 1000.000000000000000 ) ;
#109 = VECTOR ( 'NONE', #60, 1000.000000000000000 ) ;
#110 = DIRECTION ( 'NONE',  ( -0.0000000000000000000, -1.000000000000000000, -0.0000000000000000000 ) ) ;
#111 = DATE_AND_TIME ( #307, #71 ) ;
#112 = CARTESIAN_POINT ( 'NONE',  ( 0.0000000000000000000, -156.7576936753261805, 0.0000000000000000000 ) ) ;
#113 = EDGE_CURVE ( 'NONE', #258, #230, #125, .T. ) ;
#114 = AXIS2_PLACEMENT_3D ( 'NONE', #77, #65, #64 ) ;
#115 = CIRCLE ( 'NONE', #114, 281.8009311740804037 ) ;
#116 = CARTESIAN_POINT ( 'NONE',  ( -3.601901709352367682E-16, -156.7576936753261805, -2.941175947105852728 ) ) ;
#117 = AXIS2_PLACEMENT_3D ( 'NONE', #73, #69, #66 ) ;
#118 = TOROIDAL_SURFACE ( 'NONE', #117, -2.941175947105852728, 299.9999999999998863 ) ;
#119 = AXIS2_PLACEMENT_3D ( 'NONE', #86, #85, #83 ) ;
#120 = FACE_OUTER_BOUND ( 'NONE', #194, .T. ) ;
#121 = ADVANCED_FACE ( 'NONE', ( #120 ), #145, .F. ) ;
#122 = DIRECTION ( 'NONE',  ( -0.0000000000000000000, -1.000000000000000000, -0.0000000000000000000 ) ) ;
#123 = LOCAL_TIME ( 14, 41, 10.00000000000000000, #208 ) ;
#124 = CARTESIAN_POINT ( 'NONE',  ( 1.224646799147353217E-14, 0.0000000000000000000, 100.0000000000000000 ) ) ;
#125 = LINE ( 'NONE', #124, #147 ) ;
#126 = AXIS2_PLACEMENT_3D ( 'NONE', #99, #96, #95 ) ;
#127 = DIRECTION ( 'NONE',  ( 0.0000000000000000000, 0.0000000000000000000, -1.000000000000000000 ) ) ;
#128 = DIRECTION ( 'NONE',  ( -0.0000000000000000000, -1.000000000000000000, -0.0000000000000000000 ) ) ;
#129 = DIRECTION ( 'NONE',  ( 0.0000000000000000000, 0.0000000000000000000, -1.000000000000000000 ) ) ;
#130 = DIRECTION ( 'NONE',  ( -0.0000000000000000000, -1.000000000000000000, -0.0000000000000000000 ) ) ;
#131 =( NAMED_UNIT ( * ) SI_UNIT ( $, .STERADIAN. ) SOLID_ANGLE_UNIT ( ) );
#132 = CARTESIAN_POINT ( 'NONE',  ( 0.0000000000000000000, -156.7576936753261805, 0.0000000000000000000 ) ) ;
#133 = CIRCLE ( 'NONE', #126, 299.9999999999998863 ) ;
#134 = AXIS2_PLACEMENT_3D ( 'NONE', #116, #103, #101 ) ;
#135 = MECHANICAL_CONTEXT ( 'NONE', #72, 'mechanical' ) ;
#136 = CARTESIAN_POINT ( 'NONE',  ( 0.0000000000000000000, 0.0000000000000000000, 0.0000000000000000000 ) ) ;
#137 = PERSON_AND_ORGANIZATION ( #249, #293 ) ;
#138 = EDGE_CURVE ( 'NONE', #271, #266, #141, .T. ) ;
#139 = PERSON_AND_ORGANIZATION ( #249, #293 ) ;
#140 = FACE_OUTER_BOUND ( 'NONE', #193, .T. ) ;
#141 = CIRCLE ( 'NONE', #134, 281.8009311740804037 ) ;
#142 = APPROVAL_ROLE ( '' ) ;
#143 = AXIS2_PLACEMENT_3D ( 'NONE', #112, #110, #105 ) ;
#144 = DIRECTION ( 'NONE',  ( 0.0000000000000000000, 0.0000000000000000000, -1.000000000000000000 ) ) ;
#145 = TOROIDAL_SURFACE ( 'NONE', #143, -2.941175947105852728, 281.8009311740804037 ) ;
#146 = EDGE_CURVE ( 'NONE', #209, #258, #133, .T. ) ;
#147 = VECTOR ( 'NONE', #122, 1000.000000000000000 ) ;
#148 = AXIS2_PLACEMENT_3D ( 'NONE', #136, #128, #127 ) ;
#149 = DIRECTION ( 'NONE',  ( -0.0000000000000000000, -1.000000000000000000, -0.0000000000000000000 ) ) ;
#150 = ADVANCED_FACE ( 'NONE', ( #94, #90 ), #87, .T. ) ;
#151 = CARTESIAN_POINT ( 'NONE',  ( 0.0000000000000000000, 111.9999999999999574, 0.0000000000000000000 ) ) ;
#152 = FACE_OUTER_BOUND ( 'NONE', #256, .T. ) ;
#153 = CIRCLE ( 'NONE', #148, 100.0000000000000000 ) ;
#154 = DIRECTION ( 'NONE',  ( 0.0000000000000000000, 0.0000000000000000000, -1.000000000000000000 ) ) ;
#155 = ADVANCED_FACE ( 'NONE', ( #79 ), #118, .T. ) ;
#156 = DIRECTION ( 'NONE',  ( -0.0000000000000000000, -1.000000000000000000, -0.0000000000000000000 ) ) ;
#157 = CARTESIAN_POINT ( 'NONE',  ( 0.0000000000000000000, 0.0000000000000000000, 0.0000000000000000000 ) ) ;
#158 = CYLINDRICAL_SURFACE ( 'NONE', #178, 100.0000000000000000 ) ;
#159 = FACE_OUTER_BOUND ( 'NONE', #280, .T. ) ;
#160 = DIRECTION ( 'NONE',  ( 0.0000000000000000000, 0.0000000000000000000, 1.000000000000000000 ) ) ;
#161 = AXIS2_PLACEMENT_3D ( 'NONE', #132, #130, #129 ) ;
#162 = APPROVAL_PERSON_ORGANIZATION ( #70, #287, #288 ) ;
#163 = DIRECTION ( 'NONE',  ( -1.000000000000000000, 0.0000000000000000000, 0.0000000000000000000 ) ) ;
#164 = CARTESIAN_POINT ( 'NONE',  ( 0.0000000000000000000, -156.7576936753261805, 2.941175947105852728 ) ) ;
#165 =( NAMED_UNIT ( * ) PLANE_ANGLE_UNIT ( ) SI_UNIT ( $, .RADIAN. ) );
#166 = CARTESIAN_POINT ( 'NONE',  ( 0.0000000000000000000, 0.0000000000000000000, 0.0000000000000000000 ) ) ;
#167 = DIRECTION ( 'NONE',  ( 0.0000000000000000000, 0.0000000000000000000, -1.000000000000000000 ) ) ;
#168 = TOROIDAL_SURFACE ( 'NONE', #161, -2.941175947105852728, 281.8009311740804037 ) ;
#169 = EDGE_CURVE ( 'NONE', #271, #268, #115, .T. ) ;
#170 = AXIS2_PLACEMENT_3D ( 'NONE', #151, #149, #144 ) ;
#171 = CALENDAR_DATE ( 2019, 16, 12 ) ;
#172 = DIRECTION ( 'NONE',  ( -0.0000000000000000000, -1.000000000000000000, -0.0000000000000000000 ) ) ;
#173 = CALENDAR_DATE ( 2019, 16, 12 ) ;
#174 = PRODUCT_DEFINITION_SHAPE ( 'NONE', 'NONE',  #285 ) ;
#175 = CARTESIAN_POINT ( 'NONE',  ( 0.0000000000000000000, 0.0000000000000000000, 0.0000000000000000000 ) ) ;
#176 = DATE_TIME_ROLE ( 'classification_date' ) ;
#177 = CYLINDRICAL_SURFACE ( 'NONE', #189, 100.0000000000000000 ) ;
#178 = AXIS2_PLACEMENT_3D ( 'NONE', #157, #156, #154 ) ;
#179 = CIRCLE ( 'NONE', #170, 81.79999999999994031 ) ;
#180 = FACE_OUTER_BOUND ( 'NONE', #243, .T. ) ;
#181 = CC_DESIGN_APPROVAL ( #296, ( #259 ) ) ;
#182 = EDGE_CURVE ( 'NONE', #274, #272, #63, .T. ) ;
#183 = AXIS2_PLACEMENT_3D ( 'NONE', #164, #163, #160 ) ;
#184 = ADVANCED_BREP_SHAPE_REPRESENTATION ( 'End Cap SDR11_001 117 0140 0200', ( #98, #3 ), #11 ) ;
#185 = DIRECTION ( 'NONE',  ( 0.0000000000000000000, 0.0000000000000000000, -1.000000000000000000 ) ) ;
#186 = EDGE_CURVE ( 'NONE', #266, #263, #57, .T. ) ;
#187 = DIRECTION ( 'NONE',  ( -0.0000000000000000000, -1.000000000000000000, -0.0000000000000000000 ) ) ;
#188 = CARTESIAN_POINT ( 'NONE',  ( 0.0000000000000000000, 0.0000000000000000000, 0.0000000000000000000 ) ) ;
#189 = AXIS2_PLACEMENT_3D ( 'NONE', #175, #172, #167 ) ;
#190 = CIRCLE ( 'NONE', #183, 299.9999999999998863 ) ;
#191 = CYLINDRICAL_SURFACE ( 'NONE', #197, 81.79999999999996874 ) ;
#192 = FACE_OUTER_BOUND ( 'NONE', #278, .T. ) ;
#193 = EDGE_LOOP ( 'NONE', ( #283, #244, #246 ) ) ;
#194 = EDGE_LOOP ( 'NONE', ( #239, #240, #241 ) ) ;
#195 = ORIENTED_EDGE ( 'NONE', *, *, #245, .T. ) ;
#196 = ORIENTED_EDGE ( 'NONE', *, *, #51, .T. ) ;
#197 = AXIS2_PLACEMENT_3D ( 'NONE', #188, #187, #185 ) ;
#198 = VERTEX_POINT ( 'NONE', #54 ) ;
#199 =( LENGTH_UNIT ( ) NAMED_UNIT ( * ) SI_UNIT ( .MILLI., .METRE. ) );
#200 = ORIENTED_EDGE ( 'NONE', *, *, #146, .F. ) ;
#201 = ORIENTED_EDGE ( 'NONE', *, *, #238, .T. ) ;
#202 = ADVANCED_FACE ( 'NONE', ( #50 ), #100, .T. ) ;
#203 = APPROVAL_STATUS ( 'not_yet_approved' ) ;
#204 = ORIENTED_EDGE ( 'NONE', *, *, #218, .T. ) ;
#205 = CLOSED_SHELL ( 'NONE', ( #121, #155, #62, #36, #261, #150, #42, #202, #88 ) ) ;
#206 = APPROVAL_STATUS ( 'not_yet_approved' ) ;
#207 = ORIENTED_EDGE ( 'NONE', *, *, #182, .T. ) ;
#208 = COORDINATED_UNIVERSAL_TIME_OFFSET ( 3, 0, .AHEAD. ) ;
#209 = VERTEX_POINT ( 'NONE', #47 ) ;
#210 = ORIENTED_EDGE ( 'NONE', *, *, #269, .T. ) ;
#211 = EDGE_CURVE ( 'NONE', #263, #198, #91, .T. ) ;
#212 = ORIENTED_EDGE ( 'NONE', *, *, #113, .F. ) ;
#213 = CC_DESIGN_APPROVAL ( #287, ( #285 ) ) ;
#214 = ORIENTED_EDGE ( 'NONE', *, *, #211, .F. ) ;
#215 = ORIENTED_EDGE ( 'NONE', *, *, #238, .F. ) ;
#216 = ORIENTED_EDGE ( 'NONE', *, *, #221, .F. ) ;
#217 = ORIENTED_EDGE ( 'NONE', *, *, #186, .F. ) ;
#218 = EDGE_CURVE ( 'NONE', #268, #198, #35, .T. ) ;
#219 = ORIENTED_EDGE ( 'NONE', *, *, #218, .F. ) ;
#220 = ORIENTED_EDGE ( 'NONE', *, *, #211, .T. ) ;
#221 = EDGE_CURVE ( 'NONE', #268, #266, #82, .T. ) ;
#222 = ORIENTED_EDGE ( 'NONE', *, *, #186, .T. ) ;
#223 = ORIENTED_EDGE ( 'NONE', *, *, #81, .F. ) ;
#224 = CARTESIAN_POINT ( 'NONE',  ( 0.0000000000000000000, 125.0278884516288826, -99.99999999999998579 ) ) ;
#225 = ORIENTED_EDGE ( 'NONE', *, *, #182, .F. ) ;
#226 = APPLICATION_PROTOCOL_DEFINITION ( 'international standard', 'config_control_design', 1994, #72 ) ;
#227 = EDGE_CURVE ( 'NONE', #274, #258, #76, .T. ) ;
#228 = ORIENTED_EDGE ( 'NONE', *, *, #106, .F. ) ;
#229 = PERSON_AND_ORGANIZATION_ROLE ( 'design_owner' ) ;
#230 = VERTEX_POINT ( 'NONE', #21 ) ;
#231 = APPROVAL_PERSON_ORGANIZATION ( #75, #296, #290 ) ;
#232 = DATE_AND_TIME ( #104, #39 ) ;
#233 = ORIENTED_EDGE ( 'NONE', *, *, #113, .T. ) ;
#234 = SECURITY_CLASSIFICATION_LEVEL ( 'unclassified' ) ;
#235 = ORIENTED_EDGE ( 'NONE', *, *, #227, .T. ) ;
#236 = APPROVAL_DATE_TIME ( #111, #301 ) ;
#237 = ORIENTED_EDGE ( 'NONE', *, *, #51, .F. ) ;
#238 = EDGE_CURVE ( 'NONE', #198, #263, #67, .T. ) ;
#239 = ORIENTED_EDGE ( 'NONE', *, *, #169, .F. ) ;
#240 = ORIENTED_EDGE ( 'NONE', *, *, #138, .T. ) ;
#241 = ORIENTED_EDGE ( 'NONE', *, *, #81, .T. ) ;
#242 = CC_DESIGN_APPROVAL ( #301, ( #297 ) ) ;
#243 = EDGE_LOOP ( 'NONE', ( #212, #210, #207, #262 ) ) ;
#244 = ORIENTED_EDGE ( 'NONE', *, *, #169, .T. ) ;
#245 = EDGE_CURVE ( 'NONE', #230, #272, #58, .T. ) ;
#246 = ORIENTED_EDGE ( 'NONE', *, *, #221, .T. ) ;
#247 = EDGE_LOOP ( 'NONE', ( #237, #276, #265 ) ) ;
#248 = EDGE_LOOP ( 'NONE', ( #215, #214 ) ) ;
#249 = PERSON ( 'BELÝRTÝLMEMÝÞ', 'BELÝRTÝLMEMÝÞ', 'BELÝRTÝLMEMÝÞ', ('BELÝRTÝLMEMÝÞ'), ('BELÝRTÝLMEMÝÞ'), ('BELÝRTÝLMEMÝÞ') ) ;
#250 = DIRECTION ( 'NONE',  ( 0.0000000000000000000, 0.0000000000000000000, -1.000000000000000000 ) ) ;
#251 = EDGE_LOOP ( 'NONE', ( #273, #195 ) ) ;
#252 = PERSON_AND_ORGANIZATION_ROLE ( 'creator' ) ;
#253 = PRODUCT ( 'End Cap SDR11_001 117 0140 0200', 'End Cap SDR11_001 117 0140 0200', '', ( #135 ) ) ;
#254 = CC_DESIGN_DATE_AND_TIME_ASSIGNMENT ( #48, #176, ( #297 ) ) ;
#255 = DESIGN_CONTEXT ( 'detailed design', #92, 'design' ) ;
#256 = EDGE_LOOP ( 'NONE', ( #217, #216, #204, #201 ) ) ;
#257 = PERSON_AND_ORGANIZATION_ROLE ( 'creator' ) ;
#258 = VERTEX_POINT ( 'NONE', #29 ) ;
#259 = PRODUCT_DEFINITION_FORMATION_WITH_SPECIFIED_SOURCE ( 'HERHANGÝ', '', #253, .NOT_KNOWN. ) ;
#260 = COORDINATED_UNIVERSAL_TIME_OFFSET ( 3, 0, .AHEAD. ) ;
#261 = ADVANCED_FACE ( 'NONE', ( #152 ), #264, .F. ) ;
#262 = ORIENTED_EDGE ( 'NONE', *, *, #245, .F. ) ;
#263 = VERTEX_POINT ( 'NONE', #6 ) ;
#264 = CYLINDRICAL_SURFACE ( 'NONE', #49, 81.79999999999996874 ) ;
#265 = ORIENTED_EDGE ( 'NONE', *, *, #227, .F. ) ;
#266 = VERTEX_POINT ( 'NONE', #5 ) ;
#267 = ORIENTED_EDGE ( 'NONE', *, *, #269, .F. ) ;
#268 = VERTEX_POINT ( 'NONE', #4 ) ;
#269 = EDGE_CURVE ( 'NONE', #258, #274, #52, .T. ) ;
#270 = LOCAL_TIME ( 14, 41, 10.00000000000000000, #46 ) ;
#271 = VERTEX_POINT ( 'NONE', #303 ) ;
#272 = VERTEX_POINT ( 'NONE', #97 ) ;
#273 = ORIENTED_EDGE ( 'NONE', *, *, #106, .T. ) ;
#274 = VERTEX_POINT ( 'NONE', #224 ) ;
#275 = EDGE_LOOP ( 'NONE', ( #200, #196, #267 ) ) ;
#276 = ORIENTED_EDGE ( 'NONE', *, *, #146, .T. ) ;
#277 = DIRECTION ( 'NONE',  ( 0.0000000000000000000, 0.0000000000000000000, 1.000000000000000000 ) ) ;
#278 = EDGE_LOOP ( 'NONE', ( #223, #222, #220, #219 ) ) ;
#279 = DATE_AND_TIME ( #171, #306 ) ;
#280 = EDGE_LOOP ( 'NONE', ( #235, #233, #228, #225 ) ) ;
#281 = DATE_AND_TIME ( #173, #270 ) ;
#282 = CC_DESIGN_PERSON_AND_ORGANIZATION_ASSIGNMENT ( #102, #229, ( #253 ) ) ;
#283 = ORIENTED_EDGE ( 'NONE', *, *, #138, .F. ) ;
#284 = PERSON_AND_ORGANIZATION ( #249, #293 ) ;
#285 = PRODUCT_DEFINITION ( 'BÝLÝNMEYEN', '', #259, #255 ) ;
#286 = APPROVAL_PERSON_ORGANIZATION ( #284, #301, #142 ) ;
#287 = APPROVAL ( #203, 'BELÝRTÝLMEMÝÞ' ) ;
#288 = APPROVAL_ROLE ( '' ) ;
#289 = CC_DESIGN_PERSON_AND_ORGANIZATION_ASSIGNMENT ( #137, #252, ( #285 ) ) ;
#290 = APPROVAL_ROLE ( '' ) ;
#291 = CALENDAR_DATE ( 2019, 16, 12 ) ;
#292 = CC_DESIGN_PERSON_AND_ORGANIZATION_ASSIGNMENT ( #299, #78, ( #297 ) ) ;
#293 = ORGANIZATION ( 'BELÝRTÝLMEMÝÞ', 'BELÝRTÝLMEMÝÞ', '' ) ;
#294 = CC_DESIGN_DATE_AND_TIME_ASSIGNMENT ( #232, #298, ( #285 ) ) ;
#295 = APPLICATION_PROTOCOL_DEFINITION ( 'international standard', 'config_control_design', 1994, #92 ) ;
#296 = APPROVAL ( #206, 'BELÝRTÝLMEMÝÞ' ) ;
#297 = SECURITY_CLASSIFICATION ( '', '', #234 ) ;
#298 = DATE_TIME_ROLE ( 'creation_date' ) ;
#299 = PERSON_AND_ORGANIZATION ( #249, #293 ) ;
#300 = SHAPE_DEFINITION_REPRESENTATION ( #174, #184 ) ;
#301 = APPROVAL ( #24, 'BELÝRTÝLMEMÝÞ' ) ;
#302 = PRODUCT_RELATED_PRODUCT_CATEGORY ( 'detail', '', ( #253 ) ) ;
#303 = CARTESIAN_POINT ( 'NONE',  ( -7.727477043432469909E-15, 125.0278884516288826, 0.0000000000000000000 ) ) ;
#304 = COORDINATED_UNIVERSAL_TIME_OFFSET ( 3, 0, .AHEAD. ) ;
#305 = PERSON_AND_ORGANIZATION ( #249, #293 ) ;
#306 = LOCAL_TIME ( 14, 41, 10.00000000000000000, #44 ) ;
#307 = CALENDAR_DATE ( 2019, 16, 12 ) ;
ENDSEC;
END-ISO-10303-21;
